Teen - Penélope | Letra da Música

Teen - Penélope

Letras de A - Z, de diversos estilos musicais

Teen - Penélope - Letra






Intro:
{....x2.....} {....x2...}
e|-------------|-10-8----8-|------------|
B|-10-8---8-10-|------10---|-10-8---8---|
G|------9------|-----------|------9---9-|
D|-------------|-----------|------------|
A|-------------|-----------|------------|
E|-------------|-----------|------------|

Riff1
AD E
{...x2...} {...x2....} (.....x2....}
e|----------|----8-10-8-|----10-12-10-|
B|---8-10-8-|-10--------|-12----------|
G|-9--------|-----------|-------------|
D|----------|-----------|-------------|
A|----------|-----------|-------------|
E|----------|-----------|-------------|
AD
Às vezes as coisas me parecem
E
Como realmente são.
A D
É tão estranho, dá um aperto
E
Bem forte no meu coração.

F#m Bm
Não quero mais saber do que não pode ser,
F#mBm
Não quero nem mesmo tentar esclarecer.

AD
Às vezes as coisas me parecem
E
Claras como são.

A D
É tão estranho, dá um aperto
E
Bem forte no meu coração.


F#m Bm
Não quero mais saber do que não pode ser,
F#mBm
Não quero nem mesmo tentar esclarecer.

A
Quem é você?
D
Pra me dizer,
E
Pra onde vou.


A
Quem é você?
D
Pra me dizer,
E
De que cor eu sou?

AD
Às vezes eu pareço
E
Frágil como estou.
A D
É tão estranho, fecho os olhos
E
E nem sei quem sou.


F#m Bm
Não quero mais saber do que não pode ser,
F#mBm
Não quero nem mesmo tentar esclarecer.

A
Quem é você?
D
Pra me dizer,
E
Pra onde vou.


A
Quem é você?
D
Pra me dizer,
E

Teen - Penélope | Letra da Música. Compartilhe!